ISO-10303-21;
HEADER;
FILE_DESCRIPTION (( 'STEP AP203' ),
    '1' );
FILE_NAME ('End Cap SDR17_001 115 0140 0200.step',
    '2019-12-16T11:43:31',
    ( '' ),
    ( '' ),
    'SwSTEP 2.0',
    'SolidWorks 2019',
    '' );
FILE_SCHEMA (( 'CONFIG_CONTROL_DESIGN' ));
ENDSEC;

DATA;
#1 = EDGE_CURVE ( 'NONE', #136, #154, #218, .T. ) ;
#2 = DIRECTION ( 'NONE',  ( 0.0000000000000000000, 0.0000000000000000000, -1.000000000000000000 ) ) ;
#3 = VERTEX_POINT ( 'NONE', #14 ) ;
#4 = CARTESIAN_POINT ( 'NONE',  ( 0.0000000000000000000, 0.0000000000000000000, 0.0000000000000000000 ) ) ;
#5 = EDGE_LOOP ( 'NONE', ( #79, #81 ) ) ;
#6 = ORIENTED_EDGE ( 'NONE', *, *, #1, .F. ) ;
#7 = AXIS2_PLACEMENT_3D ( 'NONE', #172, #252, #34 ) ;
#8 = CC_DESIGN_DATE_AND_TIME_ASSIGNMENT ( #223, #293, ( #197 ) ) ;
#9 = COORDINATED_UNIVERSAL_TIME_OFFSET ( 3, 0, .AHEAD. ) ;
#10 = PERSON_AND_ORGANIZATION ( #258, #109 ) ;
#11 = TOROIDAL_SURFACE ( 'NONE', #147, 3.109488273180822215, 399.9999999999999432 ) ;
#12 =( GEOMETRIC_REPRESENTATION_CONTEXT ( 3 ) GLOBAL_UNCERTAINTY_ASSIGNED_CONTEXT ( ( #302 ) ) GLOBAL_UNIT_ASSIGNED_CONTEXT ( ( #196, #171, #144 ) ) REPRESENTATION_CONTEXT ( 'NONE', 'WORKASPACE' ) );
#13 = CALENDAR_DATE ( 2019, 16, 12 ) ;
#14 = CARTESIAN_POINT ( 'NONE',  ( 0.0000000000000000000, 0.0000000000000000000, -88.09999999999999432 ) ) ;
#15 = DIRECTION ( 'NONE',  ( 0.0000000000000000000, 0.0000000000000000000, -1.000000000000000000 ) ) ;
#16 = ORIENTED_EDGE ( 'NONE', *, *, #199, .T. ) ;
#17 = DIRECTION ( 'NONE',  ( -0.0000000000000000000, -1.000000000000000000, -0.0000000000000000000 ) ) ;
#18 = ORIENTED_EDGE ( 'NONE', *, *, #278, .T. ) ;
#19 = CARTESIAN_POINT ( 'NONE',  ( 0.0000000000000000000, 121.4079556969354030, 0.0000000000000000000 ) ) ;
#20 = VERTEX_POINT ( 'NONE', #166 ) ;
#21 = CIRCLE ( 'NONE', #174, 99.99999999999998579 ) ;
#22 = DIRECTION ( 'NONE',  ( -0.0000000000000000000, -1.000000000000000000, -0.0000000000000000000 ) ) ;
#23 = EDGE_LOOP ( 'NONE', ( #53, #56, #57, #58 ) ) ;
#24 = DIRECTION ( 'NONE',  ( 0.0000000000000000000, 0.0000000000000000000, -1.000000000000000000 ) ) ;
#25 = DIRECTION ( 'NONE',  ( -0.0000000000000000000, -1.000000000000000000, -0.0000000000000000000 ) ) ;
#26 = ORIENTED_EDGE ( 'NONE', *, *, #94, .F. ) ;
#27 = FACE_OUTER_BOUND ( 'NONE', #23, .T. ) ;
#28 = AXIS2_PLACEMENT_3D ( 'NONE', #4, #115, #216 ) ;
#29 = ORIENTED_EDGE ( 'NONE', *, *, #290, .T. ) ;
#30 = LOCAL_TIME ( 14, 43, 31.00000000000000000, #239 ) ;
#31 = DIRECTION ( 'NONE',  ( 0.0000000000000000000, 0.0000000000000000000, -1.000000000000000000 ) ) ;
#32 = ORIENTED_EDGE ( 'NONE', *, *, #186, .F. ) ;
#33 = EDGE_LOOP ( 'NONE', ( #6, #16, #18 ) ) ;
#34 = DIRECTION ( 'NONE',  ( 1.000000000000000000, 0.0000000000000000000, 0.0000000000000000000 ) ) ;
#35 = EDGE_CURVE ( 'NONE', #111, #157, #208, .T. ) ;
#36 = APPROVAL_DATE_TIME ( #253, #134 ) ;
#37 = APPROVAL_DATE_TIME ( #255, #266 ) ;
#38 = APPROVAL_STATUS ( 'not_yet_approved' ) ;
#39 = AXIS2_PLACEMENT_3D ( 'NONE', #76, #191, #267 ) ;
#40 = CC_DESIGN_DATE_AND_TIME_ASSIGNMENT ( #63, #178, ( #140 ) ) ;
#41 = ORIENTED_EDGE ( 'NONE', *, *, #186, .T. ) ;
#42 = PRODUCT_DEFINITION_FORMATION_WITH_SPECIFIED_SOURCE ( 'HERHANGÝ', '', #256, .NOT_KNOWN. ) ;
#43 = ORIENTED_EDGE ( 'NONE', *, *, #203, .T. ) ;
#44 = CARTESIAN_POINT ( 'NONE',  ( 0.0000000000000000000, 121.4079556969354030, 0.0000000000000000000 ) ) ;
#45 = ORIENTED_EDGE ( 'NONE', *, *, #117, .F. ) ;
#46 = EDGE_LOOP ( 'NONE', ( #84, #85 ) ) ;
#47 = AXIS2_PLACEMENT_3D ( 'NONE', #170, #250, #31 ) ;
#48 = CYLINDRICAL_SURFACE ( 'NONE', #122, 88.09999999999999432 ) ;
#49 = EDGE_LOOP ( 'NONE', ( #126, #128, #133 ) ) ;
#50 = FACE_OUTER_BOUND ( 'NONE', #114, .T. ) ;
#51 = ORIENTED_EDGE ( 'NONE', *, *, #93, .F. ) ;
#52 = DIRECTION ( 'NONE',  ( 0.0000000000000000000, 0.0000000000000000000, -1.000000000000000000 ) ) ;
#53 = ORIENTED_EDGE ( 'NONE', *, *, #278, .F. ) ;
#54 = CIRCLE ( 'NONE', #47, 88.09999999999999432 ) ;
#55 = DIRECTION ( 'NONE',  ( -1.224646799147353207E-16, 0.0000000000000000000, -1.000000000000000000 ) ) ;
#56 = ORIENTED_EDGE ( 'NONE', *, *, #262, .T. ) ;
#57 = ORIENTED_EDGE ( 'NONE', *, *, #251, .T. ) ;
#58 = ORIENTED_EDGE ( 'NONE', *, *, #277, .F. ) ;
#59 = COORDINATED_UNIVERSAL_TIME_OFFSET ( 3, 0, .AHEAD. ) ;
#60 = AXIS2_PLACEMENT_3D ( 'NONE', #193, #271, #55 ) ;
#61 = COORDINATED_UNIVERSAL_TIME_OFFSET ( 3, 0, .AHEAD. ) ;
#62 = PRODUCT_DEFINITION_SHAPE ( 'NONE', 'NONE',  #197 ) ;
#63 = DATE_AND_TIME ( #276, #294 ) ;
#64 = AXIS2_PLACEMENT_3D ( 'NONE', #215, #289, #80 ) ;
#65 = CC_DESIGN_PERSON_AND_ORGANIZATION_ASSIGNMENT ( #148, #237, ( #197 ) ) ;
#66 = DIRECTION ( 'NONE',  ( 0.0000000000000000000, 0.0000000000000000000, 1.000000000000000000 ) ) ;
#67 = VERTEX_POINT ( 'NONE', #125 ) ;
#68 = CC_DESIGN_SECURITY_CLASSIFICATION ( #140, ( #42 ) ) ;
#69 = CARTESIAN_POINT ( 'NONE',  ( 0.0000000000000000000, 111.9999999999999858, -88.09999999999999432 ) ) ;
#70 = ORIENTED_EDGE ( 'NONE', *, *, #262, .F. ) ;
#71 = CARTESIAN_POINT ( 'NONE',  ( 1.224646799147353217E-14, 0.0000000000000000000, 100.0000000000000000 ) ) ;
#72 = ORIENTED_EDGE ( 'NONE', *, *, #280, .F. ) ;
#73 = DIRECTION ( 'NONE',  ( -0.0000000000000000000, -1.000000000000000000, -0.0000000000000000000 ) ) ;
#74 = ORIENTED_EDGE ( 'NONE', *, *, #277, .T. ) ;
#75 = CIRCLE ( 'NONE', #60, 399.9999999999999432 ) ;
#76 = CARTESIAN_POINT ( 'NONE',  ( 88.09999999999999432, 0.0000000000000000000, 0.0000000000000000000 ) ) ;
#77 = ORIENTED_EDGE ( 'NONE', *, *, #297, .T. ) ;
#78 = DIRECTION ( 'NONE',  ( 0.0000000000000000000, 0.0000000000000000000, -1.000000000000000000 ) ) ;
#79 = ORIENTED_EDGE ( 'NONE', *, *, #117, .T. ) ;
#80 = DIRECTION ( 'NONE',  ( 0.0000000000000000000, 0.0000000000000000000, -1.000000000000000000 ) ) ;
#81 = ORIENTED_EDGE ( 'NONE', *, *, #35, .T. ) ;
#82 = AXIS2_PLACEMENT_3D ( 'NONE', #141, #235, #2 ) ;
#83 = TOROIDAL_SURFACE ( 'NONE', #82, 3.109488273180822215, 388.1003705932733965 ) ;
#84 = ORIENTED_EDGE ( 'NONE', *, *, #297, .F. ) ;
#85 = ORIENTED_EDGE ( 'NONE', *, *, #251, .F. ) ;
#86 = PERSON_AND_ORGANIZATION ( #258, #109 ) ;
#87 = PERSON_AND_ORGANIZATION ( #258, #109 ) ;
#88 = AXIS2_PLACEMENT_3D ( 'NONE', #192, #270, #52 ) ;
#89 = LOCAL_TIME ( 14, 43, 31.00000000000000000, #61 ) ;
#90 = PERSON_AND_ORGANIZATION_ROLE ( 'classification_officer' ) ;
#91 = CIRCLE ( 'NONE', #88, 88.09999999999999432 ) ;
#92 = AXIS2_PLACEMENT_3D ( 'NONE', #214, #288, #78 ) ;
#93 = EDGE_CURVE ( 'NONE', #67, #157, #229, .T. ) ;
#94 = EDGE_CURVE ( 'NONE', #130, #67, #195, .T. ) ;
#95 = DIRECTION ( 'NONE',  ( -0.0000000000000000000, -1.000000000000000000, -0.0000000000000000000 ) ) ;
#96 = ORIENTED_EDGE ( 'NONE', *, *, #203, .F. ) ;
#97 = CARTESIAN_POINT ( 'NONE',  ( 1.908195823574487804E-14, 133.3079556969354371, 0.0000000000000000000 ) ) ;
#98 = ORIENTED_EDGE ( 'NONE', *, *, #164, .T. ) ;
#99 = CIRCLE ( 'NONE', #92, 88.09999999999999432 ) ;
#100 = AXIS2_PLACEMENT_3D ( 'NONE', #248, #25, #137 ) ;
#101 = DIRECTION ( 'NONE',  ( 1.000000000000000000, 0.0000000000000000000, -1.224646799147353207E-16 ) ) ;
#102 = ORIENTED_EDGE ( 'NONE', *, *, #93, .T. ) ;
#103 = CARTESIAN_POINT ( 'NONE',  ( 0.0000000000000000000, -266.6799579738140551, 0.0000000000000000000 ) ) ;
#104 = ORIENTED_EDGE ( 'NONE', *, *, #35, .F. ) ;
#105 = FACE_OUTER_BOUND ( 'NONE', #5, .T. ) ;
#106 = ORIENTED_EDGE ( 'NONE', *, *, #290, .F. ) ;
#107 = CC_DESIGN_PERSON_AND_ORGANIZATION_ASSIGNMENT ( #295, #90, ( #140 ) ) ;
#108 = VECTOR ( 'NONE', #110, 1000.000000000000000 ) ;
#109 = ORGANIZATION ( 'BELÝRTÝLMEMÝÞ', 'BELÝRTÝLMEMÝÞ', '' ) ;
#110 = DIRECTION ( 'NONE',  ( -0.0000000000000000000, -1.000000000000000000, -0.0000000000000000000 ) ) ;
#111 = VERTEX_POINT ( 'NONE', #182 ) ;
#112 = ADVANCED_FACE ( 'NONE', ( #260 ), #190, .F. ) ;
#113 = CYLINDRICAL_SURFACE ( 'NONE', #64, 88.09999999999999432 ) ;
#114 = EDGE_LOOP ( 'NONE', ( #41, #43, #45, #51 ) ) ;
#115 = DIRECTION ( 'NONE',  ( -0.0000000000000000000, -1.000000000000000000, -0.0000000000000000000 ) ) ;
#116 = ORIENTED_EDGE ( 'NONE', *, *, #94, .T. ) ;
#117 = EDGE_CURVE ( 'NONE', #157, #111, #183, .T. ) ;
#118 = ORIENTED_EDGE ( 'NONE', *, *, #164, .F. ) ;
#119 = PERSON_AND_ORGANIZATION ( #258, #109 ) ;
#120 = CALENDAR_DATE ( 2019, 16, 12 ) ;
#121 = PERSON_AND_ORGANIZATION_ROLE ( 'design_supplier' ) ;
#122 = AXIS2_PLACEMENT_3D ( 'NONE', #163, #246, #24 ) ;
#123 = DATE_AND_TIME ( #13, #30 ) ;
#124 = VECTOR ( 'NONE', #305, 1000.000000000000000 ) ;
#125 = CARTESIAN_POINT ( 'NONE',  ( 0.0000000000000000000, 121.4079556969354030, -99.99999999999998579 ) ) ;
#126 = ORIENTED_EDGE ( 'NONE', *, *, #199, .F. ) ;
#127 = DIRECTION ( 'NONE',  ( 0.0000000000000000000, 0.0000000000000000000, -1.000000000000000000 ) ) ;
#128 = ORIENTED_EDGE ( 'NONE', *, *, #1, .T. ) ;
#129 = DIRECTION ( 'NONE',  ( -0.0000000000000000000, -1.000000000000000000, -0.0000000000000000000 ) ) ;
#130 = VERTEX_POINT ( 'NONE', #97 ) ;
#131 = AXIS2_PLACEMENT_3D ( 'NONE', #304, #73, #188 ) ;
#132 = DIRECTION ( 'NONE',  ( 0.0000000000000000000, 0.0000000000000000000, -1.000000000000000000 ) ) ;
#133 = ORIENTED_EDGE ( 'NONE', *, *, #280, .T. ) ;
#134 = APPROVAL ( #198, 'BELÝRTÝLMEMÝÞ' ) ;
#135 = LINE ( 'NONE', #232, #124 ) ;
#136 = VERTEX_POINT ( 'NONE', #207 ) ;
#137 = DIRECTION ( 'NONE',  ( 0.0000000000000000000, 0.0000000000000000000, -1.000000000000000000 ) ) ;
#138 = VERTEX_POINT ( 'NONE', #282 ) ;
#139 = CIRCLE ( 'NONE', #131, 88.09999999999999432 ) ;
#140 = SECURITY_CLASSIFICATION ( '', '', #224 ) ;
#141 = CARTESIAN_POINT ( 'NONE',  ( 0.0000000000000000000, -266.6799579738140551, 0.0000000000000000000 ) ) ;
#142 = EDGE_LOOP ( 'NONE', ( #96, #98, #102, #104 ) ) ;
#143 = FACE_OUTER_BOUND ( 'NONE', #142, .T. ) ;
#144 =( NAMED_UNIT ( * ) SI_UNIT ( $, .STERADIAN. ) SOLID_ANGLE_UNIT ( ) );
#145 = EDGE_LOOP ( 'NONE', ( #70, #72, #74, #77 ) ) ;
#146 = MECHANICAL_CONTEXT ( 'NONE', #268, 'mechanical' ) ;
#147 = AXIS2_PLACEMENT_3D ( 'NONE', #103, #211, #284 ) ;
#148 = PERSON_AND_ORGANIZATION ( #258, #109 ) ;
#149 = PERSON_AND_ORGANIZATION ( #258, #109 ) ;
#150 = APPROVAL_ROLE ( '' ) ;
#151 = AXIS2_PLACEMENT_3D ( 'NONE', #245, #22, #132 ) ;
#152 = DIRECTION ( 'NONE',  ( 0.0000000000000000000, 0.0000000000000000000, 1.000000000000000000 ) ) ;
#153 = CARTESIAN_POINT ( 'NONE',  ( 0.0000000000000000000, 0.0000000000000000000, 0.0000000000000000000 ) ) ;
#154 = VERTEX_POINT ( 'NONE', #69 ) ;
#155 = LOCAL_TIME ( 14, 43, 31.00000000000000000, #59 ) ;
#156 = CARTESIAN_POINT ( 'NONE',  ( 0.0000000000000000000, 0.0000000000000000000, 0.0000000000000000000 ) ) ;
#157 = VERTEX_POINT ( 'NONE', #185 ) ;
#158 = DIRECTION ( 'NONE',  ( -0.0000000000000000000, -1.000000000000000000, -0.0000000000000000000 ) ) ;
#159 = VERTEX_POINT ( 'NONE', #263 ) ;
#160 = FACE_OUTER_BOUND ( 'NONE', #259, .T. ) ;
#161 = TOROIDAL_SURFACE ( 'NONE', #151, 3.109488273180822215, 399.9999999999999432 ) ;
#162 = VECTOR ( 'NONE', #187, 1000.000000000000000 ) ;
#163 = CARTESIAN_POINT ( 'NONE',  ( 0.0000000000000000000, 0.0000000000000000000, 0.0000000000000000000 ) ) ;
#164 = EDGE_CURVE ( 'NONE', #20, #67, #179, .T. ) ;
#165 = CYLINDRICAL_SURFACE ( 'NONE', #100, 100.0000000000000000 ) ;
#166 = CARTESIAN_POINT ( 'NONE',  ( 1.224646799147353059E-14, 121.4079556969354030, 99.99999999999998579 ) ) ;
#167 = FACE_OUTER_BOUND ( 'NONE', #33, .T. ) ;
#168 = AXIS2_PLACEMENT_3D ( 'NONE', #301, #101, #209 ) ;
#169 = CIRCLE ( 'NONE', #168, 388.1003705932733965 ) ;
#170 = CARTESIAN_POINT ( 'NONE',  ( 0.0000000000000000000, 0.0000000000000000000, 0.0000000000000000000 ) ) ;
#171 =( NAMED_UNIT ( * ) PLANE_ANGLE_UNIT ( ) SI_UNIT ( $, .RADIAN. ) );
#172 = CARTESIAN_POINT ( 'NONE',  ( 0.0000000000000000000, 0.0000000000000000000, 0.0000000000000000000 ) ) ;
#173 = CC_DESIGN_PERSON_AND_ORGANIZATION_ASSIGNMENT ( #10, #121, ( #42 ) ) ;
#174 = AXIS2_PLACEMENT_3D ( 'NONE', #19, #129, #231 ) ;
#175 = CALENDAR_DATE ( 2019, 16, 12 ) ;
#176 = AXIS2_PLACEMENT_3D ( 'NONE', #44, #158, #244 ) ;
#177 = CALENDAR_DATE ( 2019, 16, 12 ) ;
#178 = DATE_TIME_ROLE ( 'classification_date' ) ;
#179 = CIRCLE ( 'NONE', #176, 99.99999999999998579 ) ;
#180 = AXIS2_PLACEMENT_3D ( 'NONE', #156, #230, #300 ) ;
#181 = DIRECTION ( 'NONE',  ( -1.000000000000000000, 0.0000000000000000000, 0.0000000000000000000 ) ) ;
#182 = CARTESIAN_POINT ( 'NONE',  ( 1.224646799147353217E-14, 0.0000000000000000000, 100.0000000000000000 ) ) ;
#183 = CIRCLE ( 'NONE', #180, 100.0000000000000000 ) ;
#184 = APPROVAL_PERSON_ORGANIZATION ( #257, #292, #150 ) ;
#185 = CARTESIAN_POINT ( 'NONE',  ( 0.0000000000000000000, 0.0000000000000000000, -100.0000000000000000 ) ) ;
#186 = EDGE_CURVE ( 'NONE', #67, #20, #21, .T. ) ;
#187 = DIRECTION ( 'NONE',  ( -0.0000000000000000000, -1.000000000000000000, -0.0000000000000000000 ) ) ;
#188 = DIRECTION ( 'NONE',  ( 0.0000000000000000000, 0.0000000000000000000, -1.000000000000000000 ) ) ;
#189 = AXIS2_PLACEMENT_3D ( 'NONE', #243, #17, #127 ) ;
#190 = TOROIDAL_SURFACE ( 'NONE', #189, 3.109488273180822215, 388.1003705932733965 ) ;
#191 = DIRECTION ( 'NONE',  ( 0.0000000000000000000, -1.000000000000000000, -0.0000000000000000000 ) ) ;
#192 = CARTESIAN_POINT ( 'NONE',  ( 0.0000000000000000000, 111.9999999999999858, 0.0000000000000000000 ) ) ;
#193 = CARTESIAN_POINT ( 'NONE',  ( 3.808024860737124560E-16, -266.6799579738140551, 3.109488273180822215 ) ) ;
#194 = AXIS2_PLACEMENT_3D ( 'NONE', #206, #281, #66 ) ;
#195 = CIRCLE ( 'NONE', #194, 399.9999999999999432 ) ;
#196 =( LENGTH_UNIT ( ) NAMED_UNIT ( * ) SI_UNIT ( .MILLI., .METRE. ) );
#197 = PRODUCT_DEFINITION ( 'BÝLÝNMEYEN', '', #42, #210 ) ;
#198 = APPROVAL_STATUS ( 'not_yet_approved' ) ;
#199 = EDGE_CURVE ( 'NONE', #136, #138, #169, .T. ) ;
#200 = VECTOR ( 'NONE', #95, 1000.000000000000000 ) ;
#201 = APPROVAL_STATUS ( 'not_yet_approved' ) ;
#202 = LOCAL_TIME ( 14, 43, 31.00000000000000000, #9 ) ;
#203 = EDGE_CURVE ( 'NONE', #20, #111, #283, .T. ) ;
#204 = COORDINATED_UNIVERSAL_TIME_OFFSET ( 3, 0, .AHEAD. ) ;
#205 = AXIS2_PLACEMENT_3D ( 'NONE', #153, #242, #15 ) ;
#206 = CARTESIAN_POINT ( 'NONE',  ( 0.0000000000000000000, -266.6799579738140551, -3.109488273180822215 ) ) ;
#207 = CARTESIAN_POINT ( 'NONE',  ( -1.432716039157874320E-14, 121.4079556969354030, 0.0000000000000000000 ) ) ;
#208 = CIRCLE ( 'NONE', #205, 100.0000000000000000 ) ;
#209 = DIRECTION ( 'NONE',  ( -1.224646799147353207E-16, 0.0000000000000000000, -1.000000000000000000 ) ) ;
#210 = DESIGN_CONTEXT ( 'detailed design', #279, 'design' ) ;
#211 = DIRECTION ( 'NONE',  ( -0.0000000000000000000, -1.000000000000000000, -0.0000000000000000000 ) ) ;
#212 = FACE_BOUND ( 'NONE', #46, .T. ) ;
#213 = AXIS2_PLACEMENT_3D ( 'NONE', #228, #181, #152 ) ;
#214 = CARTESIAN_POINT ( 'NONE',  ( 0.0000000000000000000, 111.9999999999999858, 0.0000000000000000000 ) ) ;
#215 = CARTESIAN_POINT ( 'NONE',  ( 0.0000000000000000000, 0.0000000000000000000, 0.0000000000000000000 ) ) ;
#216 = DIRECTION ( 'NONE',  ( 0.0000000000000000000, 0.0000000000000000000, -1.000000000000000000 ) ) ;
#217 = ADVANCED_BREP_SHAPE_REPRESENTATION ( 'End Cap SDR17_001 115 0140 0200', ( #222, #7 ), #12 ) ;
#218 = CIRCLE ( 'NONE', #213, 388.1003705932733965 ) ;
#219 = CLOSED_SHELL ( 'NONE', ( #285, #240, #272, #287, #254, #269, #303, #249, #112 ) ) ;
#220 = APPLICATION_PROTOCOL_DEFINITION ( 'international standard', 'config_control_design', 1994, #268 ) ;
#221 = PERSON_AND_ORGANIZATION_ROLE ( 'design_owner' ) ;
#222 = MANIFOLD_SOLID_BREP ( 'Döndür1', #219 ) ;
#223 = DATE_AND_TIME ( #120, #202 ) ;
#224 = SECURITY_CLASSIFICATION_LEVEL ( 'unclassified' ) ;
#225 = CC_DESIGN_APPROVAL ( #292, ( #140 ) ) ;
#226 = APPROVAL_DATE_TIME ( #123, #292 ) ;
#227 = CC_DESIGN_PERSON_AND_ORGANIZATION_ASSIGNMENT ( #149, #238, ( #42 ) ) ;
#228 = CARTESIAN_POINT ( 'NONE',  ( 0.0000000000000000000, -266.6799579738140551, -3.109488273180822215 ) ) ;
#229 = LINE ( 'NONE', #299, #200 ) ;
#230 = DIRECTION ( 'NONE',  ( -0.0000000000000000000, -1.000000000000000000, -0.0000000000000000000 ) ) ;
#231 = DIRECTION ( 'NONE',  ( 0.0000000000000000000, 0.0000000000000000000, -1.000000000000000000 ) ) ;
#232 = CARTESIAN_POINT ( 'NONE',  ( 1.078913830048818138E-14, 0.0000000000000000000, 88.09999999999999432 ) ) ;
#233 = LINE ( 'NONE', #306, #108 ) ;
#234 = APPROVAL_PERSON_ORGANIZATION ( #87, #266, #275 ) ;
#235 = DIRECTION ( 'NONE',  ( -0.0000000000000000000, -1.000000000000000000, -0.0000000000000000000 ) ) ;
#236 = CYLINDRICAL_SURFACE ( 'NONE', #28, 100.0000000000000000 ) ;
#237 = PERSON_AND_ORGANIZATION_ROLE ( 'creator' ) ;
#238 = PERSON_AND_ORGANIZATION_ROLE ( 'creator' ) ;
#239 = COORDINATED_UNIVERSAL_TIME_OFFSET ( 3, 0, .AHEAD. ) ;
#240 = ADVANCED_FACE ( 'NONE', ( #264 ), #161, .T. ) ;
#241 = CC_DESIGN_PERSON_AND_ORGANIZATION_ASSIGNMENT ( #119, #221, ( #256 ) ) ;
#242 = DIRECTION ( 'NONE',  ( -0.0000000000000000000, -1.000000000000000000, -0.0000000000000000000 ) ) ;
#243 = CARTESIAN_POINT ( 'NONE',  ( 0.0000000000000000000, -266.6799579738140551, 0.0000000000000000000 ) ) ;
#244 = DIRECTION ( 'NONE',  ( 0.0000000000000000000, 0.0000000000000000000, -1.000000000000000000 ) ) ;
#245 = CARTESIAN_POINT ( 'NONE',  ( 0.0000000000000000000, -266.6799579738140551, 0.0000000000000000000 ) ) ;
#246 = DIRECTION ( 'NONE',  ( -0.0000000000000000000, -1.000000000000000000, -0.0000000000000000000 ) ) ;
#247 = PRODUCT_RELATED_PRODUCT_CATEGORY ( 'detail', '', ( #256 ) ) ;
#248 = CARTESIAN_POINT ( 'NONE',  ( 0.0000000000000000000, 0.0000000000000000000, 0.0000000000000000000 ) ) ;
#249 = ADVANCED_FACE ( 'NONE', ( #160 ), #11, .T. ) ;
#250 = DIRECTION ( 'NONE',  ( -0.0000000000000000000, -1.000000000000000000, -0.0000000000000000000 ) ) ;
#251 = EDGE_CURVE ( 'NONE', #159, #3, #139, .T. ) ;
#252 = DIRECTION ( 'NONE',  ( 0.0000000000000000000, 0.0000000000000000000, 1.000000000000000000 ) ) ;
#253 = DATE_AND_TIME ( #175, #155 ) ;
#254 = ADVANCED_FACE ( 'NONE', ( #265 ), #48, .F. ) ;
#255 = DATE_AND_TIME ( #177, #89 ) ;
#256 = PRODUCT ( 'End Cap SDR17_001 115 0140 0200', 'End Cap SDR17_001 115 0140 0200', '', ( #146 ) ) ;
#257 = PERSON_AND_ORGANIZATION ( #258, #109 ) ;
#258 = PERSON ( 'BELÝRTÝLMEMÝÞ', 'BELÝRTÝLMEMÝÞ', 'BELÝRTÝLMEMÝÞ', ('BELÝRTÝLMEMÝÞ'), ('BELÝRTÝLMEMÝÞ'), ('BELÝRTÝLMEMÝÞ') ) ;
#259 = EDGE_LOOP ( 'NONE', ( #106, #116, #118 ) ) ;
#260 = FACE_OUTER_BOUND ( 'NONE', #49, .T. ) ;
#261 = CC_DESIGN_APPROVAL ( #266, ( #42 ) ) ;
#262 = EDGE_CURVE ( 'NONE', #138, #159, #135, .T. ) ;
#263 = CARTESIAN_POINT ( 'NONE',  ( 1.078913830048818138E-14, 0.0000000000000000000, 88.09999999999999432 ) ) ;
#264 = FACE_OUTER_BOUND ( 'NONE', #298, .T. ) ;
#265 = FACE_OUTER_BOUND ( 'NONE', #145, .T. ) ;
#266 = APPROVAL ( #201, 'BELÝRTÝLMEMÝÞ' ) ;
#267 = DIRECTION ( 'NONE',  ( 0.0000000000000000000, 0.0000000000000000000, -1.000000000000000000 ) ) ;
#268 = APPLICATION_CONTEXT ( 'configuration controlled 3d designs of mechanical parts and assemblies' ) ;
#269 = ADVANCED_FACE ( 'NONE', ( #105, #212 ), #286, .T. ) ;
#270 = DIRECTION ( 'NONE',  ( -0.0000000000000000000, -1.000000000000000000, -0.0000000000000000000 ) ) ;
#271 = DIRECTION ( 'NONE',  ( 1.000000000000000000, 0.0000000000000000000, -1.224646799147353207E-16 ) ) ;
#272 = ADVANCED_FACE ( 'NONE', ( #50 ), #165, .T. ) ;
#273 = APPROVAL_ROLE ( '' ) ;
#274 = APPROVAL_PERSON_ORGANIZATION ( #86, #134, #273 ) ;
#275 = APPROVAL_ROLE ( '' ) ;
#276 = CALENDAR_DATE ( 2019, 16, 12 ) ;
#277 = EDGE_CURVE ( 'NONE', #154, #3, #233, .T. ) ;
#278 = EDGE_CURVE ( 'NONE', #138, #154, #99, .T. ) ;
#279 = APPLICATION_CONTEXT ( 'configuration controlled 3d designs of mechanical parts and assemblies' ) ;
#280 = EDGE_CURVE ( 'NONE', #154, #138, #91, .T. ) ;
#281 = DIRECTION ( 'NONE',  ( -1.000000000000000000, 0.0000000000000000000, 0.0000000000000000000 ) ) ;
#282 = CARTESIAN_POINT ( 'NONE',  ( 1.078913830048818138E-14, 111.9999999999999858, 88.09999999999999432 ) ) ;
#283 = LINE ( 'NONE', #71, #162 ) ;
#284 = DIRECTION ( 'NONE',  ( 0.0000000000000000000, 0.0000000000000000000, -1.000000000000000000 ) ) ;
#285 = ADVANCED_FACE ( 'NONE', ( #167 ), #83, .F. ) ;
#286 = PLANE ( 'NONE',  #39 ) ;
#287 = ADVANCED_FACE ( 'NONE', ( #27 ), #113, .F. ) ;
#288 = DIRECTION ( 'NONE',  ( -0.0000000000000000000, -1.000000000000000000, -0.0000000000000000000 ) ) ;
#289 = DIRECTION ( 'NONE',  ( -0.0000000000000000000, -1.000000000000000000, -0.0000000000000000000 ) ) ;
#290 = EDGE_CURVE ( 'NONE', #130, #20, #75, .T. ) ;
#291 = APPLICATION_PROTOCOL_DEFINITION ( 'international standard', 'config_control_design', 1994, #279 ) ;
#292 = APPROVAL ( #38, 'BELÝRTÝLMEMÝÞ' ) ;
#293 = DATE_TIME_ROLE ( 'creation_date' ) ;
#294 = LOCAL_TIME ( 14, 43, 31.00000000000000000, #204 ) ;
#295 = PERSON_AND_ORGANIZATION ( #258, #109 ) ;
#296 = SHAPE_DEFINITION_REPRESENTATION ( #62, #217 ) ;
#297 = EDGE_CURVE ( 'NONE', #3, #159, #54, .T. ) ;
#298 = EDGE_LOOP ( 'NONE', ( #26, #29, #32 ) ) ;
#299 = CARTESIAN_POINT ( 'NONE',  ( 0.0000000000000000000, 0.0000000000000000000, -100.0000000000000000 ) ) ;
#300 = DIRECTION ( 'NONE',  ( 0.0000000000000000000, 0.0000000000000000000, -1.000000000000000000 ) ) ;
#301 = CARTESIAN_POINT ( 'NONE',  ( 3.808024860737124560E-16, -266.6799579738140551, 3.109488273180822215 ) ) ;
#302 = UNCERTAINTY_MEASURE_WITH_UNIT (LENGTH_MEASURE( 1.000000000000000082E-05 ), #196, 'distance_accuracy_value', 'NONE');
#303 = ADVANCED_FACE ( 'NONE', ( #143 ), #236, .T. ) ;
#304 = CARTESIAN_POINT ( 'NONE',  ( 0.0000000000000000000, 0.0000000000000000000, 0.0000000000000000000 ) ) ;
#305 = DIRECTION ( 'NONE',  ( -0.0000000000000000000, -1.000000000000000000, -0.0000000000000000000 ) ) ;
#306 = CARTESIAN_POINT ( 'NONE',  ( 0.0000000000000000000, 0.0000000000000000000, -88.09999999999999432 ) ) ;
#307 = CC_DESIGN_APPROVAL ( #134, ( #197 ) ) ;
ENDSEC;
END-ISO-10303-21;
